Jewel Lyrics Archive
Guitar Tabs

Pieces of You

Pieces of You
    by Jewel Kilcher


intro - in 3/4 time
   Dm2
E-----------0---------|------------0------------|
B--------6-----6------|--------6------6---------|
G-----7------------7--|----7--------------7*----|
D---------------------|-0-----------------------| x2
A--0------------------|-------------------------|
E---------------------|-------------------------|
                 *2 time it's open or 0.
   G
E-----------3---------|------------3------------|
B--------3-----3------|--------3-------3--------|
G-----0------------0--|----0--------------0-----|
D---------------------|-------------------------|
A---------------------|-------------------------|
E--3------------------|-3-----------------------|

   Dm2
E-----------0---------|------------0------------|
B--------6-----6------|--------6-------6--------|
G-----7------------7--|----7--------------7-----|
D--0------------------|-7*----------------------| x 2
A---------------------|-------------------------|
E---------------------|-------------------------|

* - harmonic - if you don't know how to play a harmonic just play a open D.

verse
    like the intro but timing is off

   Dm2
E-----------0---------|------------0-----------|
B--------6-----6------|--------6------6--------|
G-----7------------7--|----7--------------7----|
D--0------------------|-0----------------------|
A---------------------|------------------------|
E---------------------|------------------------|

   G
E-----------3---------|------------3-----------|
B--------3-----3------|--------3------3--------|
G-----0------------0--|----0--------------0----|
D---------------------|------------------------|
A---------------------|------------------------|
E--3------------------|-3----------------------|

Chorus - in 4/4 timez now
   Am
   1  +  2  +3  +  4   +   1  +   2   +3  +   4   +
E-----------0------------|------------0---------------|
B---------------1------1-|----------------1-------1---|
G--------2----------2----|--------2-----------2-------|
D-----2------------------|----2-----------------------|
A--0---------------------|-0--------------------------|
E------------------------|----------------------------|

   C
E-----------0------------|------------0---------------|
B---------------1------1-|----------------1-------1---|
G--------0----------0----|--------0-----------0-------|
D-----2------------------|----2-----------------------|
A--3---------------------|-3--------------------------|
E------------------------|----------------------------|

   G
E-----------3------------|------------3---------------|
B--------3------3------3-|--------3-------3-------3---|
G-----0-------------0----|----0---------------0-------|
D------------------------|----------------------------|
A------------------------|----------------------------|
E--3---------------------|-3--------------------------|

 C    G
|////|////|

Interlude
G     Dm   F    C    G
|////|////|////|////|////|

E-mail:



For original Jewel tabs created by Ola Svardh, check out http://surf.to/jeweltab.

For hard copies of Piano Sheet Music and Guitar Tabs,
check out the Jewel Merchandise Page.

Do you have some more Jewel Lyrics that are missing here?
Send them to the webmaster!

If you would like to receive Jewel Tabs on a consistent basis or can contribute more by transcribing them,
feel free to subscribe to the Jewel Lyrics mailing list by sending a blank e-mail to JewelLyrics-subscribe@endor.org

endor.org - Wild Strawberries 9/48

I take no credit for these guitar tabs.
This Jewel Guitar Tabs Archive has a Copyright Warning.

List All Songs