Jewel Lyrics Archive
Guitar Tabs

Kiss Your Ass

Kiss Your Ass
    by Jewel Kilcher
        Tabbed by Peter Julius Wang and Doug Baldwin



Intro
   C5    C6 C5 C6 C5 C6 C5    G5    G6 G5 G7m G5 G6 G5    
E--------------------------|---------------------------|
B--------------------------|---------------------------|
G--------------------------|---------------------------|
D--5--5--7--5--7--5--7--5--|---------------------------|  x2
A--3--3--3--3--3--3--3--3--|--5--5--7--5--8---5--7--5--|
E--------------------------|--3--3--3--3--3---3--3--3--|



Verse
   C5    C6 C5 C7m C5 C6 C5    G5    G6 G5 G7m G5 G6 G5    
E---------------------------|---------------------------|
B---------------------------|---------------------------|
G---------------------------|---------------------------|
D--5--5--7--5--7---5--7--5--|---------------------------|  x4
A--3--3--3--3--3---3--3--3--|--5--5--7--5--8---5--7--5--|
E---------------------------|--3--3--3--3--3---3--3--3--|

Chorus

 F    G    E    A    F    G    F    G
|////|////|////|////|////|////|////|//  |

Bridge

 C    G    Dm   G    Dm   G    Dm   G    F    G    C    G
|////|////|////|////|////|////|////|////|////|////|////|////|

E-mail:



For original Jewel tabs created by Ola Svardh, check out http://surf.to/jeweltab.

For hard copies of Piano Sheet Music and Guitar Tabs,
check out the Jewel Merchandise Page.

Do you have some more Jewel Lyrics that are missing here?
Send them to the webmaster!

If you would like to receive Jewel Tabs on a consistent basis or can contribute more by transcribing them,
feel free to subscribe to the Jewel Lyrics mailing list by sending a blank e-mail to JewelLyrics-subscribe@endor.org

Denis Leary 3/57

I take no credit for these guitar tabs.
This Jewel Guitar Tabs Archive has a Copyright Warning.

List All Songs