Jewel Lyrics Archive
Guitar Tabs

Jessica

Jessica
    by Jewel Kilcher
        Tabbed in part by Ben Byer

So far there are 10 different patterns to the song.
Only the bottom 4 strings are used so I will only write those in.

Part 1

-----4---4-----4---4
--------------------
---6---6-----6---6--
-7---------7--------

Part 2

-----4---4-----4---4
--------------------
---6---6-----6---6--
-6---------6--------

Part 3

-----4---4-----4---4
--------------------
---6---6-----6---6--
-4---------4--------

Part 4

-----4---4-----4---4
--------------------
---4---4-----4---4--
-2---------2--------

Part 5

--------------------
-----4---4-----4---4
---2---2-----2---2--
-0---------0--------

Part 6

--------------------
-----5---5-----5---5
---2---2-----2---2--
-0---------0--------

Part 7

--------------------
-----2---2-----2---2
---2---2-----2---2--
-0---------0--------

Part 8

-----9---9-----9---9-----4---4
------------------------------
---11--11----11--11----6---6--
-12--------11--------7--------

Part 9

-----9---9
----------
---11--11-
-12-------

Part 10

-----9---9
----------
---11--11-
-11-------

Intro

1, 2, 3, 4, 5, 6, 7, 7

Verse 1

1, 2, 3, 4, 1, 2, 3, 4, 5, 6, 7, 7

Verse 2

1, 2, 3, 4, 1, 2, 3, 4, 5, 6, 7

Bridge 

8, 8, 8, 10, 10, 9, 9, 9, 10, 9, 10, 1, 7, 7

Verse 3

1, 2, 3, 4, 1, 2, 3, 4, 5, 6, 7

Verse 4

1, 2, 3, 4, 1, 2, 3, 4, 5, 6, 7, 7

Verse 5

1, 2, 3, 4, 1, 2, 3, 4, 1, 2, 3, 4, 5, 6, 7

Verse 6 and Ending

1, 2, 3, 4, 6, 5, 6, 5, 6, 5, Em



Send any corrections to bbyer@psn.net

E-mail:



For original Jewel tabs created by Ola Svardh, check out http://surf.to/jeweltab.

For hard copies of Piano Sheet Music and Guitar Tabs,
check out the Jewel Merchandise Page.

Do you have some more Jewel Lyrics that are missing here?
Send them to the webmaster!

If you would like to receive Jewel Tabs on a consistent basis or can contribute more by transcribing them,
feel free to subscribe to the Jewel Lyrics mailing list by sending a blank e-mail to JewelLyrics-subscribe@endor.org

Linkshare - MovieLink.com 36/57

I take no credit for these guitar tabs.
This Jewel Guitar Tabs Archive has a Copyright Warning.

List All Songs