Jewel Lyrics Archive
Guitar Tabs

Grey Matter

Grey Matter
    by Jewel Kilcher
        Tabbed by Carter Navarro


(1)     |---------0-------|
        |-----3-----3-----|
        |-------------0---|
        |-----------------|
        |-----------------|
        |---3---3---------|

(2)     |---------0-------|
        |-----3-----3-----|
        |-------------0---|
        |-----------------|
        |-----------------|
        |---2---2---------|

(3)     |-----0---0-------|
        |-----------3-----|
        |-------------0---|
        |-----------------|
        |---3---3---------|
        |-----------------|

(4)     |-----2---2-------|
        |-----------3-----|
        |-------------2---|
        |---0---0---------|
        |-----------------|
        |-----------------|

(5)     |-----3---2---0---0-------|
        |-------------------0-----|
        |---------------------0---|
        |-------------------------|
        |-------------------------|
        |---3---2---0---0---------|

(6)     |-----3---3-------2---2-------0---0-------|
        |-----------0-----------0-----------0-----|
        |-------------0-----------0-----------0---|
        |-----------------------------------------|
        |-----------------------------------------|
        |---3---3-------2---2-------0---0---------|


The equivalent chord pattern for (1) should be G /
for (2) and (4) it should be D /
for (3) it should be C /
for (5) it should be G D Em
and for (6) should be G / D / Em /

Where the / indicates the chord should be played again.


INTRO

1 1 1 1

VERSE

1 1 2 2 Play 4 times

CHORUS

3 4 5           Play 3 times
3 3 4 4 3 3

BRIDGE

3 3 4 4 6 3 3

FINALE

1 1 2


This is how the song proceeds ...

INTRO/VERSE/VERSE/CHORUS/VERSE/CHORUS/BRIDGE/VERSE/CHORUS/FINALE

E-mail:



For original Jewel tabs created by Ola Svardh, check out http://surf.to/jeweltab.

For hard copies of Piano Sheet Music and Guitar Tabs,
check out the Jewel Merchandise Page.

Do you have some more Jewel Lyrics that are missing here?
Send them to the webmaster!

If you would like to receive Jewel Tabs on a consistent basis or can contribute more by transcribing them,
feel free to subscribe to the Jewel Lyrics mailing list by sending a blank e-mail to JewelLyrics-subscribe@endor.org

endor.org - Wild Strawberries 8/45

I take no credit for these guitar tabs.
This Jewel Guitar Tabs Archive has a Copyright Warning.

List All Songs