Jewel Lyrics Archive
Guitar Tabs

Flower

Flower
    by Jewel Kilcher
        Tabbed by Scott Joiner

Tune to Eb

Verse:

-------3----------------3----------------3---------------3--------
---3-----3---3------2-----2---2------1-----1---1--1~0------0---0--
----------------------------0----------0-----0---------0-----0---- Repeat
-0---0-----0------0----------------0------------------------------
------------------------------------------------------------------
------------------------------------------------------------------

     G
-------3--------3--
-------3--------3--
-------0--------0--   Repeat 3 times
-------0--------0--
-------2---3-3--3--
--3-3--3-----------

Chords for the rest of the song:

Pre-Chorus:  D   C   G
             D   C 
  
    Chorus:  G   D   C   Repeat

As with all her songs, vary the strumming.  Don't worry about what she is
EXACTLY playing on a particular recording, it will make playing along
much more fun...enjoy

E-mail:



For original Jewel tabs created by Ola Svardh, check out http://surf.to/jeweltab.

For hard copies of Piano Sheet Music and Guitar Tabs,
check out the Jewel Merchandise Page.

Do you have some more Jewel Lyrics that are missing here?
Send them to the webmaster!

If you would like to receive Jewel Tabs on a consistent basis or can contribute more by transcribing them,
feel free to subscribe to the Jewel Lyrics mailing list by sending a blank e-mail to JewelLyrics-subscribe@endor.org

LinkShare - Shutterfly.com 24/41

I take no credit for these guitar tabs.
This Jewel Guitar Tabs Archive has a Copyright Warning.

List All Songs