Jewel Lyrics Archive
Guitar Tabs

1,000 Miles Away

1,000 Miles Away
    by Jewel Kilcher
        Transcribed by Michelle Kady.


Keep your fingers in 3 basic positions... "D" "C" and "G". Just move your 
fingers around a bit.

h = hammer on   
/ = slide to
(p) = pause for a beat


INTRO:
                                                                  (D)

-2-----------(p)--2----------0h2----------(p)-2---------2-----------(p)-2-------
-------3--------------3-----------------3----------3---------------3---------3-----
----0--------------------0----------0-----------------0--------2-----------------2-
-2----------------------------2----------------------------0-------------------------
--------------------------------------------------------------------------------------
--------------------------------------------------------------------------------------


-0h2---------0h2-----------0h2---------(p)-2-----------2-----------2-----------
----------3--------------3-------------3----------3----------------3-------3------
------2-------------2--------------2------------------2--------0---------------0--
-0------------0--------------0-----------------------------2-----------------------
-------------------------------------------------------------------------------------
-------------------------------------------------------------------------------------


-0h2----------2h3-----------3/5----5------------5-------2-------------(p)-------
----------3--------------3----------------5-------------------------3--------------
-------0-------------0-------------------------0----------------2------------------ 
-2-------------2--------------2----------------------------0----------------------- 
-------------------------------------------------------------------------------------
-------------------------------------------------------------------------------------
(the last part isn't exactly right but its all I could come up with, sorry)


-2--------0h2---------(p)--2------------------------------------------------------
----3---------------3-----------3--------------------------------------------------
-------2--------2------------------2-----------------------------------------------
-----------0------------------------------------------------------------------------
-------------------------------------------------------------------------------------
-------------------------------------------------------------------------------------


VERSE:

It's morning time..   wonder where you are...   wonder who you're talking
to....
-2---------(p)-2--------0h2--------(p)-2--------2----------(p)-2------0h2------
-------3----------3--------------3---------3--------------3---------3----------3--
----0----------------0--------0---------------0--------2--------------2------2----
-2-----------------------2-------------------------0-----------------------0--------
--------------------------------------------------------------------------------------
--------------------------------------------------------------------------------------

I wonder if....    the sun has risen where you are.....

-2--------2---------0h2----------2-----------2------------2---------0h2--------
------3-------3--------------3---------3--------------3---------3-------------3--
----0------------0--------0---------------0--------2--------------2--------2-----
-2--------------------2------------------------0------------------------0----------
-------------------------------------------------------------------------------------
-------------------------------------------------------------------------------------

(Repeat verse...)

It's morning time I miss your hands on my skin.
This bed's too big with out you.....

CHORUS:
    (C)       Oh, God.  What do I do,  I'm a....

---------------0--------------------------0------------------------------------------
-1-------1--------1------0h1-------1-------1--------------------------------------
------0----------

E-mail:



For original Jewel tabs created by Ola Svardh, check out http://surf.to/jeweltab.

For hard copies of Piano Sheet Music and Guitar Tabs,
check out the Jewel Merchandise Page.

Do you have some more Jewel Lyrics that are missing here?
Send them to the webmaster!

If you would like to receive Jewel Tabs on a consistent basis or can contribute more by transcribing them,
feel free to subscribe to the Jewel Lyrics mailing list by sending a blank e-mail to JewelLyrics-subscribe@endor.org

LinkShare - iTunes 17/21

I take no credit for these guitar tabs.
This Jewel Guitar Tabs Archive has a Copyright Warning.

List All Songs