Jewel Lyrics Archive
Guitar Tabs

I'm Sensitive

I'm Sensitive
    by Jewel Kilcher
       Transcribed by Chris (CleoCrazy@aol.com)


Intro

 --------2-2---------2-2---------1-1---------1-1-----
 --------2-2---------2-2---------1-1---------1-1-----
 ----------------------------------------------------
 ----------------------------------------------------
 --2-2---------2-2---------1-1---------1-1-----------
 ----------------------------------------------------
              A                        B

Verse
        A (x2) B (x2)
        A (x2) B (x2)

Bridge

 --------0-0---------0-0---------2-2---------2-2-----
 --------0-0---------0-0---------2-2---------2-2-----
 ----------------------------------------------------
 ----------------------------------------------------
 ----------------------------------------------------
 --0-0---------0-0---------2-2---------2-2-----------
              C                       D                   (x2)

Chorus

 --------2-2---------2-2-----------------------------
 --------2-2---------2-2---------4-4---------4-4-----
 --------------------------------4-4---------4-4-----
 ----------------------------------------------------
 --2-2---------1-1-----------------------------------
 --------------------------4-4---------4-4-----------

                                                      then Bridge
(x1)


Post-Chorus

 ----------------------------------------------------
 ----------------------------------------------------
 --------4-4---------4-4---------4-4---------4-4-----
 --------4-4---------4-4---------4-4---------4-4-----
 --2-2---------2-2---------1-1---------1-1-----------
 ----------------------------------------------------



E-mail:



For original Jewel tabs created by Ola Svardh, check out http://surf.to/jeweltab.

For hard copies of Piano Sheet Music and Guitar Tabs,
check out the Jewel Merchandise Page.

Do you have some more Jewel Lyrics that are missing here?
Send them to the webmaster!

If you would like to receive Jewel Tabs on a consistent basis or can contribute more by transcribing them,
feel free to subscribe to the Jewel Lyrics mailing list by sending a blank e-mail to JewelLyrics-subscribe@endor.org

Linkshare - iTunes 2/3

I take no credit for these guitar tabs.
This Jewel Guitar Tabs Archive has a Copyright Warning.

List All Songs