Jewel Lyrics Archive
Guitar Tabs

Near You Always

Near You Always
    by Jewel Kilcher
       Transcribed by Chris (CleoCrazy@aol.com)


Tuning-  Open Db tuning
Intro

 D|-----0-----------0--------|-----0-----------0--------|
 A|--5-----5-----5-----5-----|--5-----5-----5-----5-----|
F#|--------------------------|--------------------------|
 D|--0--------0--------------|--------------------------|
 A|--------------4--------4--|--2--------2--0-----------|
 D|--------------------------|-----------------------0--|
     1  +  2  +  3  +  4  +     1  +  2  +  3  +  4  +

 D|-----0-----------0--------|-----0-----------0--------|
 A|--------------------------|--------------------------|
F#|--5-----5-----4-----4-----|--3-----3-----2-----2-----|
 D|--------------------------|--------------------------|
 A|--------------------------|--------------------------|
 D|--5--------5--5--------5--|--4--------4--3--------3--|
     1  +  2  +  3  +  4  +     1  +  2  +  3  +  4  +

 D|-----0-----------0--------|--0--0-------(5)----------|
 A|--------------------------|--0-----0----(5)----------|
F#|--1-----1-----1-----1-----|--0--------0-(5)----------|
 D|--------------------------|--0----------(5)----------|
 A|--------------------------|--0----------(5)----------|
 D|--2--------2--2--------2--|--0----------(5)----------|
     1  +  2  +  3  +  4  +     1  +  2  +  3  +  4  +
Verse

 D|-----0-----------0--------|-----0-----------0--------|   A|--5-----5-----5-----5-----|--5-----5-----5-----5-----|   |
F#|--------------------------|--------------------------|   |
 D|--0--------0--------------|--------------------------|   |
 A|--------------4--------4--|--2--------2--0-----------|   |
 D|--------------------------|-----------------------0--|   | Play
     1  +  2  +  3  +  4  +     1  +  2  +  3  +  4  +      | Twice
                                                            |
 D|-----0-----------0--------|-----0-----------0--------|   |
 A|--------------------------|--4-----4--0--2-----4--0--|   |
F#|--5-----5-----5-----5-----|--------------------------|   |
 D|--------------------------|--------------------------|   |
 A|--------------------------|--------------------------|   |
 D|--5--------5--5--------5--|--0--------0--0-----0-----|  /
     1  +  2  +  3  +  4  +     1  +  2  +  3  +  4  +

 D|--------------------------|--0--0--------0--0--------|
 A|-----2-----------2--------|--0-----0-----0-----0-----|
F#|--5-----5-----5-----5-----|--0--------0--0-----------|
 D|--------------------------|--0-----------0-----------|
 A|--2--------2--2--------2--|--0-----------0-----------|
 D|--------------------------|--0-----------0--------0--|
     1  +  2  +  3  +  4  +     1  +  2  +  3  +  4  +

 D|-----0-----------0--------|-----0-----------0--------|
 A|--------------------------|--------------------------|
F#|--5-----5-----4-----4-----|--3-----3-----2-----2-----|
 D|--------------------------|--------------------------|
 A|--------------------------|--------------------------|
 D|--5--------5--5--------5--|--4--------4--3--------3--|
     1  +  2  +  3  +  4  +     1  +  2  +  3  +  4  +

 D|-----0-----------0--------|--0--0-------(5)----------|
 A|--------------------------|--0-----0----(5)----------|
F#|--1-----1-----1-----1-----|--0--------0-(5)----------|
 D|--------------------------|--0----------(5)----------|
 A|--------------------------|--0----------(5)----------|
 D|--2--------2--2--------2--|--0----------(5)----------|
     1  +  2  +  3  +  4  +     1  +  2  +  3  +  4  +
Bridge

 D|--7-----------5-----------|--4-----4-----------------|
 A|-----7-----7-----7-----7--|-----0-----0--4-----5-----|
F#|--------0-----------0-----|-----------------0-----0--|
 D|--------------------------|--------------------------|
 A|--7-----------7-----------|--------------0-----0-----|
 D|--------------------------|--------------------------|
     1  +  2  +  3  +  4  +     1  +  2  +  3  +  4  +

 D|--5-----------4--------

E-mail:



For original Jewel tabs created by Ola Svardh, check out http://surf.to/jeweltab.

For hard copies of Piano Sheet Music and Guitar Tabs,
check out the Jewel Merchandise Page.

Do you have some more Jewel Lyrics that are missing here?
Send them to the webmaster!

If you would like to receive Jewel Tabs on a consistent basis or can contribute more by transcribing them,
feel free to subscribe to the Jewel Lyrics mailing list by sending a blank e-mail to JewelLyrics-subscribe@endor.org

Amazon - Aimee Mann 2/14

I take no credit for these guitar tabs.
This Jewel Guitar Tabs Archive has a Copyright Warning.

List All Songs