Jewel Lyrics Archive
Guitar Tabs

Emily

Emily
    by Jewel Kilcher
       Transcribed by Chris (CleoCrazy@aol.com)



This ones all on two strings.
It has many different parts, so I'm going number each part.
The numbers in the arrangement section will refer to these
numbered parts.
  All the notes are on strings 5 & 6. (or A and low E)


    |--------------------------|   D
1)  |-----6-----6-----6--------|   A
    |--7-----7-----7-----7--9--|   E (low)


    |--------------------------|
1b) |-----6-----6-----6-----6--|
    |--7-----7-----7-----7-----|


    |--------------------------|
2)  |-----6-----6-----6-----6--|
    |--6-----6-----6-----6-----|


    |--------------------------|
2b) |-----6-----6-----4-----4--|
    |--6-----6-----6-----6-----|


    |--------------------------|
3)  |-----6-----6-----6-----4--|
    |--4-----4-----4-----4-----|


    |--------------------------|
3b) |-----6-----6-----6-----6--|
    |--4-----4-----4-----4-----|


    |--------------------------|
4)  |-----4-----4-----4-----4--|
    |--2-----2-----2-----2-----|


    |--------------------------|
5)  |-----11----11----11----11-|
    |--12----12----12----12----|


    |--------------------------|
6)  |-----2-----2-----2-----2--|
    |--0-----0-----0-----0-----|


    |--------------------------|
6b) |-----2-----2-----4-----4--|
    |--0-----0-----0-----0-----|


    |--------------|
7)  |-----6-----6--|
    |--0-----0-----|


Arrangement

    Intro      1  2  3  4
    
    Verse      1  2  3  4
               1  2  3  4

                  1  2b
   
    Verse      1  2  3  4
               1  2  3  4
 
                    1

               5  2  3b  6
    Chorus     5  2  3b  6
               4  4  6b  7
                 
                 3b  3b

    Verse      1  2  3  4
               1  2  3  4

                  1  2b

    Verse      1  2  3  4
               1  2  3  4
 
                    1

               5  2  3b  6
    Chorus     5  2  3b  6
               4  4  6b  7

                 3b  3b

    Verse      1  2  3  4
               1  2  3  4  

                  4  1b
                
     End        1b  1  2b
                1b  1  2b
    
       (7th fret on low E, let ring)



E-mail:



For original Jewel tabs created by Ola Svardh, check out http://surf.to/jeweltab.

For hard copies of Piano Sheet Music and Guitar Tabs,
check out the Jewel Merchandise Page.

Do you have some more Jewel Lyrics that are missing here?
Send them to the webmaster!

If you would like to receive Jewel Tabs on a consistent basis or can contribute more by transcribing them,
feel free to subscribe to the Jewel Lyrics mailing list by sending a blank e-mail to JewelLyrics-subscribe@endor.org

Amazon - Linkin Park 4/7

I take no credit for these guitar tabs.
This Jewel Guitar Tabs Archive has a Copyright Warning.

List All Songs