Jewel Lyrics Archive
Guitar Tabs

Fly To Me Angel

Fly To Me Angel
    by Jewel
         Transcribed by Katharine (Coppertex@aol.com)


Use thumb-brush style picking...thumb plays bass string downward
 while your fingers brush the top three strings with the back of your
 fingernails downward.

------2--2-----2--2-----2--2-----2--3-|-----3--3--------3-------2--2----------
------3--3-----3--3-----3--3-----3--3-|-----3--3--------3-------3--3----------
------2--2-----2--2-----2--2-----2--2-|-----0--0--------0-------2--2----------
---0-----------------0----------------|--------------------2p0----------------
------------0-----------------0-------|------------0h2------------------------
--------------------------------------|--3------------------------------------
 Intro                                                                        

-----2--2------2--2------2--2-----2--2--|-----3--3-----3--3------2--2---2--2--
-----3--3------3--3------3--3-----3--3--|-----3--3-----3--3------3--3---3--3--
-----2--2------2--2------2--2-----2--2--|-----0--0-----0--0------2--2---2--2--
--0-------------------0-----------------|---------------------0---------------
------------0------------------0--------|-----------2-----------------0-------
----------------------------------------|--3----------------------------------
 Oh my angel...                                                     

----2--2------2--2-------0--0-------0--0------0--0------0--0------------------
----3--3------3--3-------2--2-------2--2------2--2------2--2------------------
----2--2------2--2-------2--2-------2--2------2--2------2--2------------------
-0------------------------------2--------------------2------------------------
-----------0----------0--------------------0----------------------------------
------------------------------------------------------------------------------
 Come to me swiftly...                                               

----2--2------2--2------2--2------2--2----------------------------------------
----3--3------3--3------3--3------3--3----------------------------------------
----2--2------2--2------2--2------2--2----------------------------------------
-0-------------------0--------------------------------------------------------
-----------0-------------------0----------------------------------------------
------------------------------------------------------------------------------
 So Still....                                                         



For the rest of the song:
Follows the same basic pattern...uses the G, D, and A chords.  Once you get these basic
fingerpicking patterns down you should have no problem playing the whole song.  

#----------------------------------PLEASE NOTE--------------------------------#
#This file is the author's own work and represents their interpretation of the#
#song. You may only use this file for private study, scholarship, or research.#
#-----------------------------------------------------------------------------#
#-- File created with Instab - http://www.pconline.com/~smcarey/instab.html --#
#-----------------------------------------------------------------------------#

E-mail:



For original Jewel tabs created by Ola Svardh, check out http://surf.to/jeweltab.

For hard copies of Piano Sheet Music and Guitar Tabs,
check out the Jewel Merchandise Page.

Do you have some more Jewel Lyrics that are missing here?
Send them to the webmaster!

If you would like to receive Jewel Tabs on a consistent basis or can contribute more by transcribing them,
feel free to subscribe to the Jewel Lyrics mailing list by sending a blank e-mail to JewelLyrics-subscribe@endor.org

LinkShare - iTunes 20/29

I take no credit for these guitar tabs.
This Jewel Guitar Tabs Archive has a Copyright Warning.

List All Songs