Jewel Lyrics Archive
Guitar Tabs

Face of Love

The Face of Love
by Jewel Kilcher

transcribed by Scott Broughton

brougdms@wcta.net

G1

E--------------------|
B--------------------|
G-----------0--------|
D--------0-----0-----|
A-----2-----------2--|
E--3-----------------|

G2

E--------------------|
B-----------3--------|
G--------0-----0-----|
D-----0-----------0--|
A--2-----------------|
E--------------------|

C

E--------------------|
B-----------1--------|
G--------0-----0-----|
D-----2-----------2--|
A--3-----------------|
E--------------------|

D

E-----------2--------|
B--------3-----3-----|
G-----2-----------2--|
D--0-----------------|
A--------------------|
E--------------------|

D/G

E-----------3--------|
B--------3-----3-----|
G-----2-----------0--|
D--0-----------------|
A--------------------|
E--------------------|

Bm+9

E--------------------|
B--------------------|
G-----------0--------|
D--------0-----0-----|
A-----2-----------2--|
E--2-----------------|

Em1

E--------------------|
B--------------------|
G-----------0--------|
D--------2-----2-----|
A-----2-----------2--|
E--0-----------------|

Em2

E--------------------|
B-----------0--------|
G--------0-----0-----|
D-----2-----------2--|
A--2-----------------|
E--------------------|

Intro:
G1 X 4
C X 2
D X 2
G1 X 4

Verse:
  G1 X 2  C X 2    D X 2               G1        Bm+9  Em1 X 2   C X 2       D X 2 
Until   tonight my heart was just half full, had never known the fruit which fed the

G1        Bm+9  Em1 X 2             C X 2   D            D/G
Soul, but now I see what may put to rest my longing, for I have

Chorus:
G1 Em2 C D       G1 Em2 C  D        G1 Em2 C D D/G   G1 X 4
Seen the face of love, the grace of God, the face of love

Verse:
   G1 X 2    C X 2     D X 2         G1   Bm+9    Em1 X 2  C X 2  D X 2 
In silence I feared my heart would remain words unheard  inside a separateness of

G1        Bm+9  Em1 X 2       C X 2               D         D/G
Skin, but now I know that the skin just veils the soul, for I have

Chorus (duet):
G1 Em2 C D       G1 Em2 C  D        G1 Em2 C D D/G 
Seen the face of love, the grace of God, the face of

Bridge:
Em2 X 2          C X 2  Em2 X 2              C X 2              Em2 X 2
Love, so take my hand   knowing with it I'll also give my heart wanting never to

C X 2        G2 X 2  D X 3  D/G       G1 X 4
Be separate again,     let eternity begin

Verse (duet):
   G1 X 2   C X 2       D X 2         G1    Bm+9     Em1 X 2           C X 2         D X 2 
If you were flame I'd allow myself to be consumed completely, were you wind, I would wish 

            G1              Bm+9  Em1 X 2       C X 2          D         D/G
you to pass through me, for now I know that the skin veils the soul, for I have

Chorus:
G1 Em2 C D       G1 Em2 C  D        G1 Em2 C D X 2  D D/G 
Seen the face of love, the grace of God, the face   of

G1 Em2 C D G1 Em2 C D G1 Em2 C D/G  G(strum)
Love

E-mail:



For original Jewel tabs created by Ola Svardh, check out http://surf.to/jeweltab.

For hard copies of Piano Sheet Music and Guitar Tabs,
check out the Jewel Merchandise Page.

Do you have some more Jewel Lyrics that are missing here?
Send them to the webmaster!

If you would like to receive Jewel Tabs on a consistent basis or can contribute more by transcribing them,
feel free to subscribe to the Jewel Lyrics mailing list by sending a blank e-mail to JewelLyrics-subscribe@endor.org

endor.org - John Callahan 2/46

I take no credit for these guitar tabs.
This Jewel Guitar Tabs Archive has a Copyright Warning.

List All Songs