Jewel Lyrics Archive
Guitar Tabs

Painters

Painters
    by Jewel Kilcher


I got through the first verse which is the same as verses 3 and 5.  However verse 2  and
4 have some other variations to them.  I also got through the first  chorus.  I
didn't get to the bridges (sorry  :o(   ).  

Tuning -D-A-D-F#-A-D

Intro:
---------0----------------------------------7----------------------------0----------------5--------------------
-----0----------0----------0----------0--------------7-------------0---------0-----0------------------------
----------------------0-----------0------------------------7-----0----------------0---------------------------
----------------------------------------------------------------0------------------------------------------------
--7-----------------------------7-------------------------------------------------------------------------------
-----------------------------------------------------------------------------------------------------------------
 
Verse 1:
----------0------------------------------0---------------------------------0---------------------------------------
-------0------------0------0-------0---------------0------0-----------0----------------0---------------0-------
----0------------------0-----------------------------------------------0---------------------------0---------------
--2-----------------------------2-----------------------------------0-----------------------------------------------
----------------------------------------------------------0----------------------------------------------------------
---------------------------------------------------------------------------------------------------------------------
 Eighty years, an old lady now, sitting on the front porch

-----------------0----------------------------------------0------------------------------------0---------------------
-------------0----------0-------------0------------0--------------0-------0-------------0----------0----------0--
---------0------------------------0------------0-----------------------0------------0---------------------0--------
------0-------------------------------------2------------------------------------2-----------------------------------
--------------------------------------------------------------------------------------------------------------0--------
------------------------------------------------------------------------------------------------------------------------
watching the clouds roll by.  They remind her of her lover, how he left her,

-----------------0----------------------------------------0----------------------------------------0--------------------
-------------0----------0-------------0------------0--------------0----------0--------------0----------0---------0--
---------0------------------------0------------0-----------------------0-----------------0--------------------0-------
------0-------------------------------------0------------------------------------------2--------------------------------
-----------------------------------------------------------------------------0--------------------------------------------
--------------------------------------------------------------------------------------------------------------------------
and of times long ago when she used color care-

-----------------0----------------------------------------0-------------------------------------0------------0---------
-------------0----------0----------0----------------0------------0-------0---------------0-----------------------0--
---------0-------------------0------------------0---------------------0---------------0------------------------0-----
------2-------------------------------------0--------------------------------------0-----------------------------------
------------------------------------0-----------------------------------------------------------------------------------
---------------------------------------------------------------------------------

E-mail:



For original Jewel tabs created by Ola Svardh, check out http://surf.to/jeweltab.

For hard copies of Piano Sheet Music and Guitar Tabs,
check out the Jewel Merchandise Page.

Do you have some more Jewel Lyrics that are missing here?
Send them to the webmaster!

If you would like to receive Jewel Tabs on a consistent basis or can contribute more by transcribing them,
feel free to subscribe to the Jewel Lyrics mailing list by sending a blank e-mail to JewelLyrics-subscribe@endor.org

TicketsNow 3/3

I take no credit for these guitar tabs.
This Jewel Guitar Tabs Archive has a Copyright Warning.

List All Songs